ISO-10303-21;
HEADER;
FILE_DESCRIPTION (( 'STEP AP203' ),
    '1' );
FILE_NAME ('Q-QZWP-R4-10-248-M.STEP',
    '2020-12-23T01:21:33',
    ( '' ),
    ( '' ),
    'SwSTEP 2.0',
    'SolidWorks 2020',
    '' );
FILE_SCHEMA (( 'CONFIG_CONTROL_DESIGN' ));
ENDSEC;

DATA;
#1 = CC_DESIGN_DATE_AND_TIME_ASSIGNMENT ( #253, #327, ( #126 ) ) ;
#2 = CARTESIAN_POINT ( 'NONE',  ( -1.614212418857619014, 0.000000000000000000, 0.000000000000000000 ) ) ;
#3 = CARTESIAN_POINT ( 'NONE',  ( 3.000000000000000000, 12.69999999999999929, 0.000000000000000000 ) ) ;
#4 =( GEOMETRIC_REPRESENTATION_CONTEXT ( 3 ) GLOBAL_UNCERTAINTY_ASSIGNED_CONTEXT ( ( #265 ) ) GLOBAL_UNIT_ASSIGNED_CONTEXT ( ( #115, #88, #37 ) ) REPRESENTATION_CONTEXT ( 'NONE', 'WORKASPACE' ) );
#5 = DIRECTION ( 'NONE',  ( 0.000000000000000000, 0.000000000000000000, 1.000000000000000000 ) ) ;
#6 = EDGE_CURVE ( 'NONE', #179, #245, #280, .T. ) ;
#7 = CARTESIAN_POINT ( 'NONE',  ( -1.250000000000000222, 0.000000000000000000, 0.000000000000000000 ) ) ;
#8 = DESIGN_CONTEXT ( 'detailed design', #221, 'design' ) ;
#9 = FACE_OUTER_BOUND ( 'NONE', #231, .T. ) ;
#10 = EDGE_CURVE ( 'NONE', #122, #75, #38, .T. ) ;
#11 = CARTESIAN_POINT ( 'NONE',  ( 0.000000000000000000, 0.000000000000000000, 0.000000000000000000 ) ) ;
#12 = DIRECTION ( 'NONE',  ( 0.000000000000000000, 0.000000000000000000, 1.000000000000000000 ) ) ;
#13 = AXIS2_PLACEMENT_3D ( 'NONE', #2, #260, #27 ) ;
#14 = PERSON_AND_ORGANIZATION_ROLE ( 'design_supplier' ) ;
#15 = DATE_TIME_ROLE ( 'creation_date' ) ;
#16 = ORIENTED_EDGE ( 'NONE', *, *, #212, .T. ) ;
#17 = ORIENTED_EDGE ( 'NONE', *, *, #72, .F. ) ;
#18 = AXIS2_PLACEMENT_3D ( 'NONE', #201, #307, #43 ) ;
#19 = ORIENTED_EDGE ( 'NONE', *, *, #87, .F. ) ;
#20 = APPROVAL_DATE_TIME ( #174, #58 ) ;
#21 = FACE_OUTER_BOUND ( 'NONE', #272, .T. ) ;
#22 = DIRECTION ( 'NONE',  ( 0.000000000000000000, 0.000000000000000000, 1.000000000000000000 ) ) ;
#23 = DIRECTION ( 'NONE',  ( -1.000000000000000000, -0.000000000000000000, -0.000000000000000000 ) ) ;
#24 = APPROVAL_PERSON_ORGANIZATION ( #145, #58, #249 ) ;
#25 = ORIENTED_EDGE ( 'NONE', *, *, #87, .T. ) ;
#26 = DIRECTION ( 'NONE',  ( -1.000000000000000000, -0.000000000000000000, -0.000000000000000000 ) ) ;
#27 = DIRECTION ( 'NONE',  ( 0.000000000000000000, 0.000000000000000000, 1.000000000000000000 ) ) ;
#28 = ADVANCED_FACE ( 'NONE', ( #21 ), #171, .F. ) ;
#29 = FACE_OUTER_BOUND ( 'NONE', #147, .T. ) ;
#30 = AXIS2_PLACEMENT_3D ( 'NONE', #108, #59, #160 ) ;
#31 = FACE_BOUND ( 'NONE', #48, .T. ) ;
#32 = CYLINDRICAL_SURFACE ( 'NONE', #13, 12.69999999999999929 ) ;
#33 = EDGE_CURVE ( 'NONE', #199, #309, #319, .T. ) ;
#34 = CARTESIAN_POINT ( 'NONE',  ( 3.000000000000000000, 6.123233995736768255E-16, -5.000000000000001776 ) ) ;
#35 = CIRCLE ( 'NONE', #153, 12.69999999999999929 ) ;
#36 = APPROVAL_ROLE ( '' ) ;
#37 =( NAMED_UNIT ( * ) SI_UNIT ( $, .STERADIAN. ) SOLID_ANGLE_UNIT ( ) );
#38 = CIRCLE ( 'NONE', #82, 12.69999999999999929 ) ;
#39 = AXIS2_PLACEMENT_3D ( 'NONE', #69, #151, #333 ) ;
#40 = ORIENTED_EDGE ( 'NONE', *, *, #150, .T. ) ;
#41 = DIRECTION ( 'NONE',  ( -0.000000000000000000, 0.000000000000000000, 1.000000000000000000 ) ) ;
#42 = AXIS2_PLACEMENT_3D ( 'NONE', #206, #286, #290 ) ;
#43 = DIRECTION ( 'NONE',  ( 0.000000000000000000, 0.000000000000000000, 1.000000000000000000 ) ) ;
#44 = CARTESIAN_POINT ( 'NONE',  ( 3.000000000000000000, 0.000000000000000000, 0.000000000000000000 ) ) ;
#45 = PRODUCT_DEFINITION ( 'UNKNOWN', '', #313, #8 ) ;
#46 = COORDINATED_UNIVERSAL_TIME_OFFSET ( 8, 0, .AHEAD. ) ;
#47 = DIRECTION ( 'NONE',  ( -1.000000000000000000, -0.000000000000000000, -0.000000000000000000 ) ) ;
#48 = EDGE_LOOP ( 'NONE', ( #17, #130 ) ) ;
#49 = ADVANCED_BREP_SHAPE_REPRESENTATION ( 'Q-QZWP-R4-10-248-M', ( #287, #120 ), #4 ) ;
#50 = DIRECTION ( 'NONE',  ( 0.000000000000000000, 0.000000000000000000, 1.000000000000000000 ) ) ;
#51 = VECTOR ( 'NONE', #23, 1000.000000000000000 ) ;
#52 = ORIENTED_EDGE ( 'NONE', *, *, #282, .T. ) ;
#53 = CARTESIAN_POINT ( 'NONE',  ( -1.614212418857619014, 1.555301434917138433E-15, -12.69999999999999929 ) ) ;
#54 = FACE_OUTER_BOUND ( 'NONE', #250, .T. ) ;
#55 = DIRECTION ( 'NONE',  ( -1.000000000000000000, -0.000000000000000000, -0.000000000000000000 ) ) ;
#56 = ORGANIZATION ( 'UNSPECIFIED', 'UNSPECIFIED', '' ) ;
#57 = FACE_OUTER_BOUND ( 'NONE', #209, .T. ) ;
#58 = APPROVAL ( #279, 'UNSPECIFIED' ) ;
#59 = DIRECTION ( 'NONE',  ( -1.000000000000000000, -0.000000000000000000, -0.000000000000000000 ) ) ;
#60 = PERSON_AND_ORGANIZATION_ROLE ( 'design_owner' ) ;
#61 = VECTOR ( 'NONE', #47, 1000.000000000000000 ) ;
#62 = ADVANCED_FACE ( 'NONE', ( #303 ), #302, .F. ) ;
#63 = CLOSED_SHELL ( 'NONE', ( #251, #208, #184, #28, #196, #116, #317, #329, #296, #62 ) ) ;
#64 = VERTEX_POINT ( 'NONE', #71 ) ;
#65 = AXIS2_PLACEMENT_3D ( 'NONE', #213, #262, #314 ) ;
#66 = EDGE_CURVE ( 'NONE', #326, #168, #242, .T. ) ;
#67 = EDGE_LOOP ( 'NONE', ( #205, #143 ) ) ;
#68 = CARTESIAN_POINT ( 'NONE',  ( 3.000000000000000000, 0.000000000000000000, 12.69999999999999929 ) ) ;
#69 = CARTESIAN_POINT ( 'NONE',  ( -1.250000000000000222, 0.000000000000000000, 0.000000000000000000 ) ) ;
#70 = VECTOR ( 'NONE', #232, 1000.000000000000000 ) ;
#71 = CARTESIAN_POINT ( 'NONE',  ( -1.250000000000000222, 0.000000000000000000, 5.000000000000000888 ) ) ;
#72 = EDGE_CURVE ( 'NONE', #79, #245, #186, .T. ) ;
#73 = CARTESIAN_POINT ( 'NONE',  ( 3.000000000000000000, 1.555301434917138433E-15, -12.69999999999999929 ) ) ;
#74 = CARTESIAN_POINT ( 'NONE',  ( -1.614212418857619014, 0.000000000000000000, 12.69999999999999929 ) ) ;
#75 = VERTEX_POINT ( 'NONE', #68 ) ;
#76 = CARTESIAN_POINT ( 'NONE',  ( -3.000000000000000000, 0.000000000000000000, 12.69999999999999929 ) ) ;
#77 = AXIS2_PLACEMENT_3D ( 'NONE', #3, #105, #158 ) ;
#78 = CYLINDRICAL_SURFACE ( 'NONE', #207, 5.000000000000000888 ) ;
#79 = VERTEX_POINT ( 'NONE', #101 ) ;
#80 = DIRECTION ( 'NONE',  ( -1.000000000000000000, -0.000000000000000000, -0.000000000000000000 ) ) ;
#81 = CARTESIAN_POINT ( 'NONE',  ( -1.614212418857619014, 0.000000000000000000, 0.000000000000000000 ) ) ;
#82 = AXIS2_PLACEMENT_3D ( 'NONE', #44, #26, #176 ) ;
#83 = LOCAL_TIME ( 9, 21, 33.00000000000000000, #139 ) ;
#84 = CARTESIAN_POINT ( 'NONE',  ( 1.250000000000000444, 6.123233995736766282E-16, -5.000000000000000000 ) ) ;
#85 = COORDINATED_UNIVERSAL_TIME_OFFSET ( 8, 0, .AHEAD. ) ;
#86 = APPROVAL_STATUS ( 'not_yet_approved' ) ;
#87 = EDGE_CURVE ( 'NONE', #199, #181, #308, .T. ) ;
#88 =( NAMED_UNIT ( * ) PLANE_ANGLE_UNIT ( ) SI_UNIT ( $, .RADIAN. ) );
#89 = CARTESIAN_POINT ( 'NONE',  ( -3.000000000000000000, 1.555301434917138433E-15, -12.69999999999999929 ) ) ;
#90 = LOCAL_TIME ( 9, 21, 33.00000000000000000, #46 ) ;
#91 = EDGE_LOOP ( 'NONE', ( #124, #197 ) ) ;
#92 = ORIENTED_EDGE ( 'NONE', *, *, #33, .F. ) ;
#93 = VERTEX_POINT ( 'NONE', #225 ) ;
#94 = CARTESIAN_POINT ( 'NONE',  ( -3.000000000000000000, 0.000000000000000000, 0.000000000000000000 ) ) ;
#95 = DIRECTION ( 'NONE',  ( -1.000000000000000000, -0.000000000000000000, -0.000000000000000000 ) ) ;
#96 = EDGE_CURVE ( 'NONE', #309, #93, #154, .T. ) ;
#97 = APPROVAL_PERSON_ORGANIZATION ( #243, #324, #36 ) ;
#98 = EDGE_LOOP ( 'NONE', ( #152, #299 ) ) ;
#99 = CALENDAR_DATE ( 2020, 23, 12 ) ;
#100 = PRODUCT_DEFINITION_SHAPE ( 'NONE', 'NONE',  #45 ) ;
#101 = CARTESIAN_POINT ( 'NONE',  ( -3.000000000000000000, 0.000000000000000000, 5.000000000000000000 ) ) ;
#102 = EDGE_LOOP ( 'NONE', ( #312, #195, #258, #107 ) ) ;
#103 = EDGE_CURVE ( 'NONE', #64, #179, #164, .T. ) ;
#104 = DIRECTION ( 'NONE',  ( 0.000000000000000000, 0.000000000000000000, -1.000000000000000000 ) ) ;
#105 = DIRECTION ( 'NONE',  ( -1.000000000000000000, 0.000000000000000000, -0.000000000000000000 ) ) ;
#106 = CC_DESIGN_APPROVAL ( #324, ( #45 ) ) ;
#107 = ORIENTED_EDGE ( 'NONE', *, *, #66, .F. ) ;
#108 = CARTESIAN_POINT ( 'NONE',  ( 1.250000000000000444, 0.000000000000000000, 0.000000000000000000 ) ) ;
#109 = CC_DESIGN_PERSON_AND_ORGANIZATION_ASSIGNMENT ( #163, #60, ( #203 ) ) ;
#110 = PLANE ( 'NONE',  #295 ) ;
#111 = DIRECTION ( 'NONE',  ( 1.000000000000000000, 0.000000000000000000, 0.000000000000000000 ) ) ;
#112 = CIRCLE ( 'NONE', #190, 5.000000000000000888 ) ;
#113 = DATE_AND_TIME ( #142, #291 ) ;
#114 = MECHANICAL_CONTEXT ( 'NONE', #202, 'mechanical' ) ;
#115 =( LENGTH_UNIT ( ) NAMED_UNIT ( * ) SI_UNIT ( .MILLI., .METRE. ) );
#116 = ADVANCED_FACE ( 'NONE', ( #172 ), #276, .F. ) ;
#117 = DATE_AND_TIME ( #222, #83 ) ;
#118 = CC_DESIGN_PERSON_AND_ORGANIZATION_ASSIGNMENT ( #322, #297, ( #126 ) ) ;
#119 = ORIENTED_EDGE ( 'NONE', *, *, #282, .F. ) ;
#120 = AXIS2_PLACEMENT_3D ( 'NONE', #11, #273, #323 ) ;
#121 = ORIENTED_EDGE ( 'NONE', *, *, #96, .F. ) ;
#122 = VERTEX_POINT ( 'NONE', #73 ) ;
#123 = EDGE_CURVE ( 'NONE', #168, #326, #35, .T. ) ;
#124 = ORIENTED_EDGE ( 'NONE', *, *, #161, .T. ) ;
#125 = ORIENTED_EDGE ( 'NONE', *, *, #6, .F. ) ;
#126 = SECURITY_CLASSIFICATION ( '', '', #238 ) ;
#127 = CARTESIAN_POINT ( 'NONE',  ( -3.000000000000000000, 0.000000000000000000, 0.000000000000000000 ) ) ;
#128 = EDGE_CURVE ( 'NONE', #75, #168, #257, .T. ) ;
#129 = DIRECTION ( 'NONE',  ( -1.000000000000000000, -0.000000000000000000, -0.000000000000000000 ) ) ;
#130 = ORIENTED_EDGE ( 'NONE', *, *, #219, .F. ) ;
#131 = FACE_BOUND ( 'NONE', #91, .T. ) ;
#132 = ORIENTED_EDGE ( 'NONE', *, *, #212, .F. ) ;
#133 = DIRECTION ( 'NONE',  ( 1.000000000000000000, 0.000000000000000000, 0.000000000000000000 ) ) ;
#134 = CYLINDRICAL_SURFACE ( 'NONE', #140, 5.000000000000000888 ) ;
#135 = PLANE ( 'NONE',  #77 ) ;
#136 = DIRECTION ( 'NONE',  ( -1.000000000000000000, -0.000000000000000000, -0.000000000000000000 ) ) ;
#137 = CC_DESIGN_SECURITY_CLASSIFICATION ( #126, ( #313 ) ) ;
#138 = APPROVAL_DATE_TIME ( #117, #141 ) ;
#139 = COORDINATED_UNIVERSAL_TIME_OFFSET ( 8, 0, .AHEAD. ) ;
#140 = AXIS2_PLACEMENT_3D ( 'NONE', #292, #187, #5 ) ;
#141 = APPROVAL ( #86, 'UNSPECIFIED' ) ;
#142 = CALENDAR_DATE ( 2020, 23, 12 ) ;
#143 = ORIENTED_EDGE ( 'NONE', *, *, #66, .T. ) ;
#144 = ORIENTED_EDGE ( 'NONE', *, *, #161, .F. ) ;
#145 = PERSON_AND_ORGANIZATION ( #244, #56 ) ;
#146 = DIRECTION ( 'NONE',  ( -1.000000000000000000, -0.000000000000000000, -0.000000000000000000 ) ) ;
#147 = EDGE_LOOP ( 'NONE', ( #132, #328 ) ) ;
#148 = SHAPE_DEFINITION_REPRESENTATION ( #100, #49 ) ;
#149 = DIRECTION ( 'NONE',  ( -1.000000000000000000, -0.000000000000000000, -0.000000000000000000 ) ) ;
#150 = EDGE_CURVE ( 'NONE', #122, #326, #185, .T. ) ;
#151 = DIRECTION ( 'NONE',  ( 1.000000000000000000, 0.000000000000000000, 0.000000000000000000 ) ) ;
#152 = ORIENTED_EDGE ( 'NONE', *, *, #103, .F. ) ;
#153 = AXIS2_PLACEMENT_3D ( 'NONE', #127, #229, #335 ) ;
#154 = LINE ( 'NONE', #198, #61 ) ;
#155 = DIRECTION ( 'NONE',  ( 0.000000000000000000, 0.000000000000000000, 1.000000000000000000 ) ) ;
#156 = CARTESIAN_POINT ( 'NONE',  ( -1.250000000000000222, 6.123233995736767268E-16, -5.000000000000000888 ) ) ;
#157 = EDGE_CURVE ( 'NONE', #181, #93, #277, .T. ) ;
#158 = DIRECTION ( 'NONE',  ( -0.000000000000000000, 0.000000000000000000, 1.000000000000000000 ) ) ;
#159 = DIRECTION ( 'NONE',  ( 0.000000000000000000, 0.000000000000000000, 1.000000000000000000 ) ) ;
#160 = DIRECTION ( 'NONE',  ( 0.000000000000000000, 0.000000000000000000, 1.000000000000000000 ) ) ;
#161 = EDGE_CURVE ( 'NONE', #309, #199, #218, .T. ) ;
#162 = CC_DESIGN_DATE_AND_TIME_ASSIGNMENT ( #191, #15, ( #45 ) ) ;
#163 = PERSON_AND_ORGANIZATION ( #244, #56 ) ;
#164 = CIRCLE ( 'NONE', #39, 5.000000000000000888 ) ;
#165 = COORDINATED_UNIVERSAL_TIME_OFFSET ( 8, 0, .AHEAD. ) ;
#166 = DIRECTION ( 'NONE',  ( -1.000000000000000000, -0.000000000000000000, -0.000000000000000000 ) ) ;
#167 = LOCAL_TIME ( 9, 21, 33.00000000000000000, #165 ) ;
#168 = VERTEX_POINT ( 'NONE', #76 ) ;
#169 = APPROVAL_STATUS ( 'not_yet_approved' ) ;
#170 = ORIENTED_EDGE ( 'NONE', *, *, #157, .F. ) ;
#171 = PLANE ( 'NONE',  #270 ) ;
#172 = FACE_OUTER_BOUND ( 'NONE', #246, .T. ) ;
#173 = AXIS2_PLACEMENT_3D ( 'NONE', #94, #146, #50 ) ;
#174 = DATE_AND_TIME ( #331, #90 ) ;
#175 = ORIENTED_EDGE ( 'NONE', *, *, #96, .T. ) ;
#176 = DIRECTION ( 'NONE',  ( 0.000000000000000000, 0.000000000000000000, 1.000000000000000000 ) ) ;
#177 = CC_DESIGN_PERSON_AND_ORGANIZATION_ASSIGNMENT ( #240, #325, ( #313 ) ) ;
#178 = ORIENTED_EDGE ( 'NONE', *, *, #72, .T. ) ;
#179 = VERTEX_POINT ( 'NONE', #156 ) ;
#180 = CYLINDRICAL_SURFACE ( 'NONE', #214, 5.000000000000000888 ) ;
#181 = VERTEX_POINT ( 'NONE', #84 ) ;
#182 = CARTESIAN_POINT ( 'NONE',  ( 3.000000000000000000, 0.000000000000000000, 5.000000000000001776 ) ) ;
#183 = EDGE_LOOP ( 'NONE', ( #274, #281, #230, #119 ) ) ;
#184 = ADVANCED_FACE ( 'NONE', ( #54 ), #134, .F. ) ;
#185 = LINE ( 'NONE', #53, #70 ) ;
#186 = CIRCLE ( 'NONE', #256, 5.000000000000000000 ) ;
#187 = DIRECTION ( 'NONE',  ( -1.000000000000000000, -0.000000000000000000, -0.000000000000000000 ) ) ;
#188 = PRODUCT_RELATED_PRODUCT_CATEGORY ( 'detail', '', ( #203 ) ) ;
#189 = CALENDAR_DATE ( 2020, 23, 12 ) ;
#190 = AXIS2_PLACEMENT_3D ( 'NONE', #7, #111, #104 ) ;
#191 = DATE_AND_TIME ( #189, #320 ) ;
#192 = ORIENTED_EDGE ( 'NONE', *, *, #128, .F. ) ;
#193 = APPROVAL_ROLE ( '' ) ;
#194 = CIRCLE ( 'NONE', #65, 5.000000000000000000 ) ;
#195 = ORIENTED_EDGE ( 'NONE', *, *, #10, .T. ) ;
#196 = ADVANCED_FACE ( 'NONE', ( #57 ), #180, .F. ) ;
#197 = ORIENTED_EDGE ( 'NONE', *, *, #33, .T. ) ;
#198 = CARTESIAN_POINT ( 'NONE',  ( -1.614212418857619014, 0.000000000000000000, 5.000000000000000888 ) ) ;
#199 = VERTEX_POINT ( 'NONE', #34 ) ;
#200 = VECTOR ( 'NONE', #129, 1000.000000000000000 ) ;
#201 = CARTESIAN_POINT ( 'NONE',  ( -1.614212418857619014, 0.000000000000000000, 0.000000000000000000 ) ) ;
#202 = APPLICATION_CONTEXT ( 'configuration controlled 3d designs of mechanical parts and assemblies' ) ;
#203 = PRODUCT ( 'Q-QZWP-R4-10-248-M', 'Q-QZWP-R4-10-248-M', '', ( #114 ) ) ;
#204 = DIRECTION ( 'NONE',  ( -1.000000000000000000, -0.000000000000000000, -0.000000000000000000 ) ) ;
#205 = ORIENTED_EDGE ( 'NONE', *, *, #123, .T. ) ;
#206 = CARTESIAN_POINT ( 'NONE',  ( 3.000000000000000000, 0.000000000000000000, 0.000000000000000000 ) ) ;
#207 = AXIS2_PLACEMENT_3D ( 'NONE', #210, #80, #211 ) ;
#208 = ADVANCED_FACE ( 'NONE', ( #311 ), #78, .F. ) ;
#209 = EDGE_LOOP ( 'NONE', ( #19, #144, #175, #255 ) ) ;
#210 = CARTESIAN_POINT ( 'NONE',  ( -1.614212418857619014, 0.000000000000000000, 0.000000000000000000 ) ) ;
#211 = DIRECTION ( 'NONE',  ( 0.000000000000000000, 0.000000000000000000, 1.000000000000000000 ) ) ;
#212 = EDGE_CURVE ( 'NONE', #75, #122, #266, .T. ) ;
#213 = CARTESIAN_POINT ( 'NONE',  ( 1.250000000000000444, 0.000000000000000000, 0.000000000000000000 ) ) ;
#214 = AXIS2_PLACEMENT_3D ( 'NONE', #81, #316, #155 ) ;
#215 = CYLINDRICAL_SURFACE ( 'NONE', #301, 12.69999999999999929 ) ;
#216 = COORDINATED_UNIVERSAL_TIME_OFFSET ( 8, 0, .AHEAD. ) ;
#217 = PERSON_AND_ORGANIZATION ( #244, #56 ) ;
#218 = CIRCLE ( 'NONE', #223, 5.000000000000001776 ) ;
#219 = EDGE_CURVE ( 'NONE', #245, #79, #261, .T. ) ;
#220 = CARTESIAN_POINT ( 'NONE',  ( -1.614212418857619014, 0.000000000000000000, 0.000000000000000000 ) ) ;
#221 = APPLICATION_CONTEXT ( 'configuration controlled 3d designs of mechanical parts and assemblies' ) ;
#222 = CALENDAR_DATE ( 2020, 23, 12 ) ;
#223 = AXIS2_PLACEMENT_3D ( 'NONE', #264, #263, #159 ) ;
#224 = ORIENTED_EDGE ( 'NONE', *, *, #123, .F. ) ;
#225 = CARTESIAN_POINT ( 'NONE',  ( 1.250000000000000444, 0.000000000000000000, 5.000000000000000000 ) ) ;
#226 = DIRECTION ( 'NONE',  ( 0.000000000000000000, 0.000000000000000000, 1.000000000000000000 ) ) ;
#227 = CARTESIAN_POINT ( 'NONE',  ( 3.000000000000000000, 0.000000000000000000, 0.000000000000000000 ) ) ;
#228 = AXIS2_PLACEMENT_3D ( 'NONE', #236, #136, #259 ) ;
#229 = DIRECTION ( 'NONE',  ( -1.000000000000000000, -0.000000000000000000, -0.000000000000000000 ) ) ;
#230 = ORIENTED_EDGE ( 'NONE', *, *, #219, .T. ) ;
#231 = EDGE_LOOP ( 'NONE', ( #16, #40, #224, #192 ) ) ;
#232 = DIRECTION ( 'NONE',  ( -1.000000000000000000, -0.000000000000000000, -0.000000000000000000 ) ) ;
#233 = AXIS2_PLACEMENT_3D ( 'NONE', #227, #95, #226 ) ;
#234 = DIRECTION ( 'NONE',  ( 0.000000000000000000, 0.000000000000000000, -1.000000000000000000 ) ) ;
#235 = CARTESIAN_POINT ( 'NONE',  ( -3.000000000000000000, 6.123233995736766282E-16, -5.000000000000000000 ) ) ;
#236 = CARTESIAN_POINT ( 'NONE',  ( -3.000000000000000000, 0.000000000000000000, 0.000000000000000000 ) ) ;
#237 = FACE_OUTER_BOUND ( 'NONE', #102, .T. ) ;
#238 = SECURITY_CLASSIFICATION_LEVEL ( 'unclassified' ) ;
#239 = APPROVAL_DATE_TIME ( #113, #324 ) ;
#240 = PERSON_AND_ORGANIZATION ( #244, #56 ) ;
#241 = VECTOR ( 'NONE', #149, 1000.000000000000000 ) ;
#242 = CIRCLE ( 'NONE', #173, 12.69999999999999929 ) ;
#243 = PERSON_AND_ORGANIZATION ( #244, #56 ) ;
#244 = PERSON ( 'UNSPECIFIED', 'UNSPECIFIED', 'UNSPECIFIED', ('UNSPECIFIED'), ('UNSPECIFIED'), ('UNSPECIFIED') ) ;
#245 = VERTEX_POINT ( 'NONE', #235 ) ;
#246 = EDGE_LOOP ( 'NONE', ( #125, #284, #52, #178 ) ) ;
#247 = CARTESIAN_POINT ( 'NONE',  ( -1.614212418857619014, 6.123233995736767268E-16, -5.000000000000000888 ) ) ;
#248 = VECTOR ( 'NONE', #55, 1000.000000000000000 ) ;
#249 = APPROVAL_ROLE ( '' ) ;
#250 = EDGE_LOOP ( 'NONE', ( #92, #25, #315, #121 ) ) ;
#251 = ADVANCED_FACE ( 'NONE', ( #9 ), #32, .T. ) ;
#252 = CARTESIAN_POINT ( 'NONE',  ( -3.000000000000000000, 0.000000000000000000, 0.000000000000000000 ) ) ;
#253 = DATE_AND_TIME ( #99, #167 ) ;
#254 = CARTESIAN_POINT ( 'NONE',  ( 1.250000000000000222, 5.000000000000000000, 0.000000000000000000 ) ) ;
#255 = ORIENTED_EDGE ( 'NONE', *, *, #304, .T. ) ;
#256 = AXIS2_PLACEMENT_3D ( 'NONE', #252, #204, #22 ) ;
#257 = LINE ( 'NONE', #74, #200 ) ;
#258 = ORIENTED_EDGE ( 'NONE', *, *, #128, .T. ) ;
#259 = DIRECTION ( 'NONE',  ( 0.000000000000000000, 0.000000000000000000, 1.000000000000000000 ) ) ;
#260 = DIRECTION ( 'NONE',  ( -1.000000000000000000, -0.000000000000000000, -0.000000000000000000 ) ) ;
#261 = CIRCLE ( 'NONE', #228, 5.000000000000000000 ) ;
#262 = DIRECTION ( 'NONE',  ( -1.000000000000000000, -0.000000000000000000, -0.000000000000000000 ) ) ;
#263 = DIRECTION ( 'NONE',  ( -1.000000000000000000, -0.000000000000000000, -0.000000000000000000 ) ) ;
#264 = CARTESIAN_POINT ( 'NONE',  ( 3.000000000000000000, 0.000000000000000000, 0.000000000000000000 ) ) ;
#265 = UNCERTAINTY_MEASURE_WITH_UNIT (LENGTH_MEASURE( 1.000000000000000082E-05 ), #115, 'distance_accuracy_value', 'NONE');
#266 = CIRCLE ( 'NONE', #42, 12.69999999999999929 ) ;
#267 = APPLICATION_PROTOCOL_DEFINITION ( 'international standard', 'config_control_design', 1994, #202 ) ;
#268 = PERSON_AND_ORGANIZATION ( #244, #56 ) ;
#269 = APPLICATION_PROTOCOL_DEFINITION ( 'international standard', 'config_control_design', 1994, #221 ) ;
#270 = AXIS2_PLACEMENT_3D ( 'NONE', #254, #330, #41 ) ;
#271 = CC_DESIGN_APPROVAL ( #141, ( #313 ) ) ;
#272 = EDGE_LOOP ( 'NONE', ( #289, #170 ) ) ;
#273 = DIRECTION ( 'NONE',  ( 0.000000000000000000, 0.000000000000000000, 1.000000000000000000 ) ) ;
#274 = ORIENTED_EDGE ( 'NONE', *, *, #103, .T. ) ;
#275 = DIRECTION ( 'NONE',  ( 0.000000000000000000, 0.000000000000000000, -1.000000000000000000 ) ) ;
#276 = CYLINDRICAL_SURFACE ( 'NONE', #18, 5.000000000000000888 ) ;
#277 = CIRCLE ( 'NONE', #30, 5.000000000000000000 ) ;
#278 = EDGE_CURVE ( 'NONE', #179, #64, #112, .T. ) ;
#279 = APPROVAL_STATUS ( 'not_yet_approved' ) ;
#280 = LINE ( 'NONE', #332, #241 ) ;
#281 = ORIENTED_EDGE ( 'NONE', *, *, #6, .T. ) ;
#282 = EDGE_CURVE ( 'NONE', #64, #79, #318, .T. ) ;
#283 = CARTESIAN_POINT ( 'NONE',  ( -1.250000000000000222, 5.000000000000000000, 0.000000000000000000 ) ) ;
#284 = ORIENTED_EDGE ( 'NONE', *, *, #278, .T. ) ;
#285 = CC_DESIGN_APPROVAL ( #58, ( #126 ) ) ;
#286 = DIRECTION ( 'NONE',  ( -1.000000000000000000, -0.000000000000000000, -0.000000000000000000 ) ) ;
#287 = MANIFOLD_SOLID_BREP ( 'Ðý×', #63 ) ;
#288 = FACE_OUTER_BOUND ( 'NONE', #67, .T. ) ;
#289 = ORIENTED_EDGE ( 'NONE', *, *, #304, .F. ) ;
#290 = DIRECTION ( 'NONE',  ( 0.000000000000000000, 0.000000000000000000, 1.000000000000000000 ) ) ;
#291 = LOCAL_TIME ( 9, 21, 33.00000000000000000, #85 ) ;
#292 = CARTESIAN_POINT ( 'NONE',  ( -1.614212418857619014, 0.000000000000000000, 0.000000000000000000 ) ) ;
#293 = CARTESIAN_POINT ( 'NONE',  ( -1.614212418857619014, 0.000000000000000000, 5.000000000000000888 ) ) ;
#294 = PERSON_AND_ORGANIZATION_ROLE ( 'creator' ) ;
#295 = AXIS2_PLACEMENT_3D ( 'NONE', #321, #133, #234 ) ;
#296 = ADVANCED_FACE ( 'NONE', ( #29, #131 ), #135, .F. ) ;
#297 = PERSON_AND_ORGANIZATION_ROLE ( 'classification_officer' ) ;
#298 = CC_DESIGN_PERSON_AND_ORGANIZATION_ASSIGNMENT ( #217, #294, ( #45 ) ) ;
#299 = ORIENTED_EDGE ( 'NONE', *, *, #278, .F. ) ;
#300 = PERSON_AND_ORGANIZATION ( #244, #56 ) ;
#301 = AXIS2_PLACEMENT_3D ( 'NONE', #220, #166, #12 ) ;
#302 = PLANE ( 'NONE',  #306 ) ;
#303 = FACE_OUTER_BOUND ( 'NONE', #98, .T. ) ;
#304 = EDGE_CURVE ( 'NONE', #93, #181, #194, .T. ) ;
#305 = DIRECTION ( 'NONE',  ( 1.000000000000000000, 0.000000000000000000, 0.000000000000000000 ) ) ;
#306 = AXIS2_PLACEMENT_3D ( 'NONE', #283, #305, #275 ) ;
#307 = DIRECTION ( 'NONE',  ( -1.000000000000000000, -0.000000000000000000, -0.000000000000000000 ) ) ;
#308 = LINE ( 'NONE', #247, #51 ) ;
#309 = VERTEX_POINT ( 'NONE', #182 ) ;
#310 = CC_DESIGN_PERSON_AND_ORGANIZATION_ASSIGNMENT ( #300, #14, ( #313 ) ) ;
#311 = FACE_OUTER_BOUND ( 'NONE', #183, .T. ) ;
#312 = ORIENTED_EDGE ( 'NONE', *, *, #150, .F. ) ;
#313 = PRODUCT_DEFINITION_FORMATION_WITH_SPECIFIED_SOURCE ( 'ANY', '', #203, .NOT_KNOWN. ) ;
#314 = DIRECTION ( 'NONE',  ( 0.000000000000000000, 0.000000000000000000, 1.000000000000000000 ) ) ;
#315 = ORIENTED_EDGE ( 'NONE', *, *, #157, .T. ) ;
#316 = DIRECTION ( 'NONE',  ( -1.000000000000000000, -0.000000000000000000, -0.000000000000000000 ) ) ;
#317 = ADVANCED_FACE ( 'NONE', ( #31, #288 ), #110, .F. ) ;
#318 = LINE ( 'NONE', #293, #248 ) ;
#319 = CIRCLE ( 'NONE', #233, 5.000000000000001776 ) ;
#320 = LOCAL_TIME ( 9, 21, 33.00000000000000000, #216 ) ;
#321 = CARTESIAN_POINT ( 'NONE',  ( -3.000000000000000000, 5.000000000000000000, 0.000000000000000000 ) ) ;
#322 = PERSON_AND_ORGANIZATION ( #244, #56 ) ;
#323 = DIRECTION ( 'NONE',  ( 1.000000000000000000, 0.000000000000000000, 0.000000000000000000 ) ) ;
#324 = APPROVAL ( #169, 'UNSPECIFIED' ) ;
#325 = PERSON_AND_ORGANIZATION_ROLE ( 'creator' ) ;
#326 = VERTEX_POINT ( 'NONE', #89 ) ;
#327 = DATE_TIME_ROLE ( 'classification_date' ) ;
#328 = ORIENTED_EDGE ( 'NONE', *, *, #10, .F. ) ;
#329 = ADVANCED_FACE ( 'NONE', ( #237 ), #215, .T. ) ;
#330 = DIRECTION ( 'NONE',  ( -1.000000000000000000, 0.000000000000000000, -0.000000000000000000 ) ) ;
#331 = CALENDAR_DATE ( 2020, 23, 12 ) ;
#332 = CARTESIAN_POINT ( 'NONE',  ( -1.614212418857619014, 6.123233995736767268E-16, -5.000000000000000888 ) ) ;
#333 = DIRECTION ( 'NONE',  ( 0.000000000000000000, 0.000000000000000000, -1.000000000000000000 ) ) ;
#334 = APPROVAL_PERSON_ORGANIZATION ( #268, #141, #193 ) ;
#335 = DIRECTION ( 'NONE',  ( 0.000000000000000000, 0.000000000000000000, 1.000000000000000000 ) ) ;
ENDSEC;
END-ISO-10303-21;
